ISO-10303-21;
HEADER;
/* Generated by software containing ST-Developer
 * from STEP Tools, Inc. (www.steptools.com) 
 */

FILE_DESCRIPTION(
/* description */ (''),
/* implementation_level */ '2;1');

FILE_NAME(
/* name */ 'C:\\Users\\Michael.liu\\Desktop\\LSNUT-AAAE-UKGI.stp',
/* time_stamp */ '2018-04-12T11:33:41+08:00',
/* author */ ('Michael.liu'),
/* organization */ (''),
/* preprocessor_version */ 'ST-DEVELOPER v16.13',
/* originating_system */ 'Autodesk Inventor 2018',
/* authorisation */ '');

FILE_SCHEMA (('AUTOMOTIVE_DESIGN { 1 0 10303 214 3 1 1 }'));
ENDSEC;

DATA;
#10=MECHANICAL_DESIGN_GEOMETRIC_PRESENTATION_REPRESENTATION('',(#13),#303);
#11=SHAPE_REPRESENTATION_RELATIONSHIP('SRR','None',#310,#12);
#12=ADVANCED_BREP_SHAPE_REPRESENTATION('',(#14),#302);
#13=STYLED_ITEM('',(#319),#14);
#14=MANIFOLD_SOLID_BREP('\X2\5B9E4F53\X0\1',#163);
#15=PLANE('',#188);
#16=PLANE('',#195);
#17=PLANE('',#207);
#18=CYLINDRICAL_SURFACE('',#186,3.);
#19=CYLINDRICAL_SURFACE('',#197,1.8);
#20=CYLINDRICAL_SURFACE('',#199,1.8);
#21=CYLINDRICAL_SURFACE('',#201,1.8);
#22=CYLINDRICAL_SURFACE('',#203,6.35);
#23=CYLINDRICAL_SURFACE('',#205,12.7);
#24=FACE_BOUND('',#53,.T.);
#25=FACE_BOUND('',#55,.T.);
#26=FACE_BOUND('',#57,.T.);
#27=FACE_BOUND('',#58,.T.);
#28=FACE_BOUND('',#59,.T.);
#29=FACE_BOUND('',#60,.T.);
#30=FACE_BOUND('',#62,.T.);
#31=FACE_BOUND('',#64,.T.);
#32=FACE_BOUND('',#66,.T.);
#33=FACE_BOUND('',#68,.T.);
#34=FACE_BOUND('',#70,.T.);
#35=FACE_BOUND('',#72,.T.);
#36=FACE_BOUND('',#74,.T.);
#37=FACE_BOUND('',#76,.T.);
#38=FACE_BOUND('',#77,.T.);
#39=FACE_BOUND('',#78,.T.);
#40=FACE_BOUND('',#79,.T.);
#41=FACE_OUTER_BOUND('',#52,.T.);
#42=FACE_OUTER_BOUND('',#54,.T.);
#43=FACE_OUTER_BOUND('',#56,.T.);
#44=FACE_OUTER_BOUND('',#61,.T.);
#45=FACE_OUTER_BOUND('',#63,.T.);
#46=FACE_OUTER_BOUND('',#65,.T.);
#47=FACE_OUTER_BOUND('',#67,.T.);
#48=FACE_OUTER_BOUND('',#69,.T.);
#49=FACE_OUTER_BOUND('',#71,.T.);
#50=FACE_OUTER_BOUND('',#73,.T.);
#51=FACE_OUTER_BOUND('',#75,.T.);
#52=EDGE_LOOP('',(#122));
#53=EDGE_LOOP('',(#123));
#54=EDGE_LOOP('',(#124));
#55=EDGE_LOOP('',(#125));
#56=EDGE_LOOP('',(#126));
#57=EDGE_LOOP('',(#127));
#58=EDGE_LOOP('',(#128));
#59=EDGE_LOOP('',(#129));
#60=EDGE_LOOP('',(#130));
#61=EDGE_LOOP('',(#131));
#62=EDGE_LOOP('',(#132));
#63=EDGE_LOOP('',(#133));
#64=EDGE_LOOP('',(#134));
#65=EDGE_LOOP('',(#135));
#66=EDGE_LOOP('',(#136));
#67=EDGE_LOOP('',(#137));
#68=EDGE_LOOP('',(#138));
#69=EDGE_LOOP('',(#139));
#70=EDGE_LOOP('',(#140));
#71=EDGE_LOOP('',(#141));
#72=EDGE_LOOP('',(#142));
#73=EDGE_LOOP('',(#143));
#74=EDGE_LOOP('',(#144));
#75=EDGE_LOOP('',(#145));
#76=EDGE_LOOP('',(#146));
#77=EDGE_LOOP('',(#147));
#78=EDGE_LOOP('',(#148));
#79=EDGE_LOOP('',(#149));
#80=CIRCLE('',#184,3.);
#81=CIRCLE('',#185,4.);
#82=CIRCLE('',#187,3.);
#83=CIRCLE('',#189,12.7);
#84=CIRCLE('',#190,1.8);
#85=CIRCLE('',#191,1.8);
#86=CIRCLE('',#192,1.8);
#87=CIRCLE('',#194,4.);
#88=CIRCLE('',#196,6.35);
#89=CIRCLE('',#198,1.8);
#90=CIRCLE('',#200,1.8);
#91=CIRCLE('',#202,1.8);
#92=CIRCLE('',#204,6.35);
#93=CIRCLE('',#206,12.7);
#94=VERTEX_POINT('',#262);
#95=VERTEX_POINT('',#264);
#96=VERTEX_POINT('',#267);
#97=VERTEX_POINT('',#270);
#98=VERTEX_POINT('',#272);
#99=VERTEX_POINT('',#274);
#100=VERTEX_POINT('',#276);
#101=VERTEX_POINT('',#279);
#102=VERTEX_POINT('',#282);
#103=VERTEX_POINT('',#285);
#104=VERTEX_POINT('',#288);
#105=VERTEX_POINT('',#291);
#106=VERTEX_POINT('',#294);
#107=VERTEX_POINT('',#297);
#108=EDGE_CURVE('',#94,#94,#80,.T.);
#109=EDGE_CURVE('',#95,#95,#81,.T.);
#110=EDGE_CURVE('',#96,#96,#82,.T.);
#111=EDGE_CURVE('',#97,#97,#83,.T.);
#112=EDGE_CURVE('',#98,#98,#84,.T.);
#113=EDGE_CURVE('',#99,#99,#85,.T.);
#114=EDGE_CURVE('',#100,#100,#86,.T.);
#115=EDGE_CURVE('',#101,#101,#87,.T.);
#116=EDGE_CURVE('',#102,#102,#88,.T.);
#117=EDGE_CURVE('',#103,#103,#89,.T.);
#118=EDGE_CURVE('',#104,#104,#90,.T.);
#119=EDGE_CURVE('',#105,#105,#91,.T.);
#120=EDGE_CURVE('',#106,#106,#92,.T.);
#121=EDGE_CURVE('',#107,#107,#93,.T.);
#122=ORIENTED_EDGE('',*,*,#108,.T.);
#123=ORIENTED_EDGE('',*,*,#109,.T.);
#124=ORIENTED_EDGE('',*,*,#110,.F.);
#125=ORIENTED_EDGE('',*,*,#108,.F.);
#126=ORIENTED_EDGE('',*,*,#111,.T.);
#127=ORIENTED_EDGE('',*,*,#112,.T.);
#128=ORIENTED_EDGE('',*,*,#113,.T.);
#129=ORIENTED_EDGE('',*,*,#114,.T.);
#130=ORIENTED_EDGE('',*,*,#109,.F.);
#131=ORIENTED_EDGE('',*,*,#110,.T.);
#132=ORIENTED_EDGE('',*,*,#115,.T.);
#133=ORIENTED_EDGE('',*,*,#116,.T.);
#134=ORIENTED_EDGE('',*,*,#115,.F.);
#135=ORIENTED_EDGE('',*,*,#114,.F.);
#136=ORIENTED_EDGE('',*,*,#117,.F.);
#137=ORIENTED_EDGE('',*,*,#113,.F.);
#138=ORIENTED_EDGE('',*,*,#118,.F.);
#139=ORIENTED_EDGE('',*,*,#112,.F.);
#140=ORIENTED_EDGE('',*,*,#119,.F.);
#141=ORIENTED_EDGE('',*,*,#116,.F.);
#142=ORIENTED_EDGE('',*,*,#120,.F.);
#143=ORIENTED_EDGE('',*,*,#121,.F.);
#144=ORIENTED_EDGE('',*,*,#111,.F.);
#145=ORIENTED_EDGE('',*,*,#121,.T.);
#146=ORIENTED_EDGE('',*,*,#117,.T.);
#147=ORIENTED_EDGE('',*,*,#118,.T.);
#148=ORIENTED_EDGE('',*,*,#119,.T.);
#149=ORIENTED_EDGE('',*,*,#120,.T.);
#150=CONICAL_SURFACE('',#183,3.5,0.785398163397448);
#151=CONICAL_SURFACE('',#193,3.5,0.785398163397448);
#152=ADVANCED_FACE('',(#41,#24),#150,.F.);
#153=ADVANCED_FACE('',(#42,#25),#18,.F.);
#154=ADVANCED_FACE('',(#43,#26,#27,#28,#29),#15,.F.);
#155=ADVANCED_FACE('',(#44,#30),#151,.F.);
#156=ADVANCED_FACE('',(#45,#31),#16,.T.);
#157=ADVANCED_FACE('',(#46,#32),#19,.F.);
#158=ADVANCED_FACE('',(#47,#33),#20,.F.);
#159=ADVANCED_FACE('',(#48,#34),#21,.F.);
#160=ADVANCED_FACE('',(#49,#35),#22,.T.);
#161=ADVANCED_FACE('',(#50,#36),#23,.T.);
#162=ADVANCED_FACE('',(#51,#37,#38,#39,#40),#17,.T.);
#163=CLOSED_SHELL('',(#152,#153,#154,#155,#156,#157,#158,#159,#160,#161,
#162));
#164=DERIVED_UNIT_ELEMENT(#166,0.);
#165=DERIVED_UNIT_ELEMENT(#305,0.);
#166=(
MASS_UNIT()
NAMED_UNIT(*)
SI_UNIT($,.GRAM.)
);
#167=DERIVED_UNIT((#164,#165));
#168=MEASURE_REPRESENTATION_ITEM('density measure',
POSITIVE_RATIO_MEASURE(1.),#167);
#169=PROPERTY_DEFINITION_REPRESENTATION(#174,#171);
#170=PROPERTY_DEFINITION_REPRESENTATION(#175,#172);
#171=REPRESENTATION('material name',(#173),#302);
#172=REPRESENTATION('density',(#168),#302);
#173=DESCRIPTIVE_REPRESENTATION_ITEM('\X2\5E3889C4\X0\','\X2\5E3889C4\X0\');
#174=PROPERTY_DEFINITION('material property','material name',#312);
#175=PROPERTY_DEFINITION('material property','density of part',#312);
#176=DATE_TIME_ROLE('creation_date');
#177=APPLIED_DATE_AND_TIME_ASSIGNMENT(#178,#176,(#312));
#178=DATE_AND_TIME(#179,#180);
#179=CALENDAR_DATE(2017,16,11);
#180=LOCAL_TIME(1,17,29.,#181);
#181=COORDINATED_UNIVERSAL_TIME_OFFSET(0,0,.BEHIND.);
#182=AXIS2_PLACEMENT_3D('placement',#260,#208,#209);
#183=AXIS2_PLACEMENT_3D('',#261,#210,#211);
#184=AXIS2_PLACEMENT_3D('',#263,#212,#213);
#185=AXIS2_PLACEMENT_3D('',#265,#214,#215);
#186=AXIS2_PLACEMENT_3D('',#266,#216,#217);
#187=AXIS2_PLACEMENT_3D('',#268,#218,#219);
#188=AXIS2_PLACEMENT_3D('',#269,#220,#221);
#189=AXIS2_PLACEMENT_3D('',#271,#222,#223);
#190=AXIS2_PLACEMENT_3D('',#273,#224,#225);
#191=AXIS2_PLACEMENT_3D('',#275,#226,#227);
#192=AXIS2_PLACEMENT_3D('',#277,#228,#229);
#193=AXIS2_PLACEMENT_3D('',#278,#230,#231);
#194=AXIS2_PLACEMENT_3D('',#280,#232,#233);
#195=AXIS2_PLACEMENT_3D('',#281,#234,#235);
#196=AXIS2_PLACEMENT_3D('',#283,#236,#237);
#197=AXIS2_PLACEMENT_3D('',#284,#238,#239);
#198=AXIS2_PLACEMENT_3D('',#286,#240,#241);
#199=AXIS2_PLACEMENT_3D('',#287,#242,#243);
#200=AXIS2_PLACEMENT_3D('',#289,#244,#245);
#201=AXIS2_PLACEMENT_3D('',#290,#246,#247);
#202=AXIS2_PLACEMENT_3D('',#292,#248,#249);
#203=AXIS2_PLACEMENT_3D('',#293,#250,#251);
#204=AXIS2_PLACEMENT_3D('',#295,#252,#253);
#205=AXIS2_PLACEMENT_3D('',#296,#254,#255);
#206=AXIS2_PLACEMENT_3D('',#298,#256,#257);
#207=AXIS2_PLACEMENT_3D('',#299,#258,#259);
#208=DIRECTION('axis',(0.,0.,1.));
#209=DIRECTION('refdir',(1.,0.,0.));
#210=DIRECTION('center_axis',(0.,0.,-1.));
#211=DIRECTION('ref_axis',(-1.,0.,0.));
#212=DIRECTION('center_axis',(0.,0.,1.));
#213=DIRECTION('ref_axis',(-1.,0.,0.));
#214=DIRECTION('center_axis',(0.,0.,-1.));
#215=DIRECTION('ref_axis',(-1.,0.,0.));
#216=DIRECTION('center_axis',(0.,0.,-1.));
#217=DIRECTION('ref_axis',(-1.,0.,0.));
#218=DIRECTION('center_axis',(0.,0.,-1.));
#219=DIRECTION('ref_axis',(-1.,0.,0.));
#220=DIRECTION('center_axis',(0.,0.,1.));
#221=DIRECTION('ref_axis',(1.,0.,0.));
#222=DIRECTION('center_axis',(0.,0.,-1.));
#223=DIRECTION('ref_axis',(-1.,0.,0.));
#224=DIRECTION('center_axis',(0.,0.,1.));
#225=DIRECTION('ref_axis',(-1.,0.,0.));
#226=DIRECTION('center_axis',(0.,0.,1.));
#227=DIRECTION('ref_axis',(0.5,-0.866025403784439,0.));
#228=DIRECTION('center_axis',(0.,0.,1.));
#229=DIRECTION('ref_axis',(0.5,0.866025403784438,0.));
#230=DIRECTION('center_axis',(0.,0.,1.));
#231=DIRECTION('ref_axis',(-1.,0.,0.));
#232=DIRECTION('center_axis',(0.,0.,1.));
#233=DIRECTION('ref_axis',(-1.,0.,0.));
#234=DIRECTION('center_axis',(0.,0.,1.));
#235=DIRECTION('ref_axis',(1.,0.,0.));
#236=DIRECTION('center_axis',(0.,0.,1.));
#237=DIRECTION('ref_axis',(-1.,0.,0.));
#238=DIRECTION('center_axis',(0.,0.,-1.));
#239=DIRECTION('ref_axis',(0.5,0.866025403784438,0.));
#240=DIRECTION('center_axis',(0.,0.,-1.));
#241=DIRECTION('ref_axis',(0.5,0.866025403784438,0.));
#242=DIRECTION('center_axis',(0.,0.,-1.));
#243=DIRECTION('ref_axis',(0.5,-0.866025403784439,0.));
#244=DIRECTION('center_axis',(0.,0.,-1.));
#245=DIRECTION('ref_axis',(0.5,-0.866025403784439,0.));
#246=DIRECTION('center_axis',(0.,0.,-1.));
#247=DIRECTION('ref_axis',(-1.,0.,0.));
#248=DIRECTION('center_axis',(0.,0.,-1.));
#249=DIRECTION('ref_axis',(-1.,0.,0.));
#250=DIRECTION('center_axis',(0.,0.,1.));
#251=DIRECTION('ref_axis',(-1.,0.,0.));
#252=DIRECTION('center_axis',(0.,0.,-1.));
#253=DIRECTION('ref_axis',(-1.,0.,0.));
#254=DIRECTION('center_axis',(0.,0.,1.));
#255=DIRECTION('ref_axis',(-1.,0.,0.));
#256=DIRECTION('center_axis',(0.,0.,1.));
#257=DIRECTION('ref_axis',(-1.,0.,0.));
#258=DIRECTION('center_axis',(0.,0.,1.));
#259=DIRECTION('ref_axis',(1.,0.,0.));
#260=CARTESIAN_POINT('',(0.,0.,0.));
#261=CARTESIAN_POINT('Origin',(0.,0.,0.5));
#262=CARTESIAN_POINT('',(3.,3.67394039744206E-16,1.));
#263=CARTESIAN_POINT('Origin',(0.,0.,1.));
#264=CARTESIAN_POINT('',(4.,-4.89858719658941E-16,0.));
#265=CARTESIAN_POINT('Origin',(0.,0.,0.));
#266=CARTESIAN_POINT('Origin',(0.,0.,19.05));
#267=CARTESIAN_POINT('',(3.,-3.67394039744206E-16,18.05));
#268=CARTESIAN_POINT('Origin',(0.,0.,18.05));
#269=CARTESIAN_POINT('Origin',(-1.29519693020651E-15,2.91397119324188E-16,
0.));
#270=CARTESIAN_POINT('',(12.7,1.55530143491714E-15,0.));
#271=CARTESIAN_POINT('Origin',(0.,0.,0.));
#272=CARTESIAN_POINT('',(1.8,-9.525,0.));
#273=CARTESIAN_POINT('Origin',(0.,-9.525,0.));
#274=CARTESIAN_POINT('',(7.34889197104678,6.32134572681199,0.));
#275=CARTESIAN_POINT('Origin',(8.24889197104678,4.7625,0.));
#276=CARTESIAN_POINT('',(-9.14889197104678,3.20365427318802,0.));
#277=CARTESIAN_POINT('Origin',(-8.24889197104678,4.7625,0.));
#278=CARTESIAN_POINT('Origin',(0.,0.,18.55));
#279=CARTESIAN_POINT('',(4.,4.89858719658941E-16,19.05));
#280=CARTESIAN_POINT('Origin',(0.,0.,19.05));
#281=CARTESIAN_POINT('Origin',(-6.47598465103257E-16,1.45698559662094E-16,
19.05));
#282=CARTESIAN_POINT('',(6.35,7.77650717458569E-16,19.05));
#283=CARTESIAN_POINT('Origin',(0.,0.,19.05));
#284=CARTESIAN_POINT('Origin',(-8.24889197104678,4.7625,3.81));
#285=CARTESIAN_POINT('',(-9.14889197104678,3.20365427318802,3.81));
#286=CARTESIAN_POINT('Origin',(-8.24889197104678,4.7625,3.81));
#287=CARTESIAN_POINT('Origin',(8.24889197104678,4.7625,3.81));
#288=CARTESIAN_POINT('',(7.34889197104678,6.32134572681199,3.81));
#289=CARTESIAN_POINT('Origin',(8.24889197104678,4.7625,3.81));
#290=CARTESIAN_POINT('Origin',(0.,-9.525,3.81));
#291=CARTESIAN_POINT('',(1.8,-9.525,3.81));
#292=CARTESIAN_POINT('Origin',(0.,-9.525,3.81));
#293=CARTESIAN_POINT('Origin',(0.,0.,3.81));
#294=CARTESIAN_POINT('',(6.35,7.77650717458569E-16,3.81));
#295=CARTESIAN_POINT('Origin',(0.,0.,3.81));
#296=CARTESIAN_POINT('Origin',(0.,0.,0.));
#297=CARTESIAN_POINT('',(12.7,1.55530143491714E-15,3.81));
#298=CARTESIAN_POINT('Origin',(0.,0.,3.81));
#299=CARTESIAN_POINT('Origin',(-1.29519693020651E-15,2.91397119324188E-16,
3.81));
#300=UNCERTAINTY_MEASURE_WITH_UNIT(LENGTH_MEASURE(0.01),#304,
'DISTANCE_ACCURACY_VALUE',
'Maximum model space distance between geometric entities at asserted c
onnectivities');
#301=UNCERTAINTY_MEASURE_WITH_UNIT(LENGTH_MEASURE(0.01),#304,
'DISTANCE_ACCURACY_VALUE',
'Maximum model space distance between geometric entities at asserted c
onnectivities');
#302=(
GEOMETRIC_REPRESENTATION_CONTEXT(3)
GLOBAL_UNCERTAINTY_ASSIGNED_CONTEXT((#300))
GLOBAL_UNIT_ASSIGNED_CONTEXT((#304,#307,#306))
REPRESENTATION_CONTEXT('','3D')
);
#303=(
GEOMETRIC_REPRESENTATION_CONTEXT(3)
GLOBAL_UNCERTAINTY_ASSIGNED_CONTEXT((#301))
GLOBAL_UNIT_ASSIGNED_CONTEXT((#304,#307,#306))
REPRESENTATION_CONTEXT('','3D')
);
#304=(
LENGTH_UNIT()
NAMED_UNIT(*)
SI_UNIT(.MILLI.,.METRE.)
);
#305=(
LENGTH_UNIT()
NAMED_UNIT(*)
SI_UNIT(.CENTI.,.METRE.)
);
#306=(
NAMED_UNIT(*)
SI_UNIT($,.STERADIAN.)
SOLID_ANGLE_UNIT()
);
#307=(
NAMED_UNIT(*)
PLANE_ANGLE_UNIT()
SI_UNIT($,.RADIAN.)
);
#308=SHAPE_DEFINITION_REPRESENTATION(#309,#310);
#309=PRODUCT_DEFINITION_SHAPE('',$,#312);
#310=SHAPE_REPRESENTATION('',(#182),#302);
#311=PRODUCT_DEFINITION_CONTEXT('part definition',#316,'design');
#312=PRODUCT_DEFINITION('LSNUT-AAAE-TJCA','LSNUT-AAAE-UKGI',#313,#311);
#313=PRODUCT_DEFINITION_FORMATION('',$,#318);
#314=PRODUCT_RELATED_PRODUCT_CATEGORY('LSNUT-AAAE-UKGI',
'LSNUT-AAAE-UKGI',(#318));
#315=APPLICATION_PROTOCOL_DEFINITION('international standard',
'automotive_design',2009,#316);
#316=APPLICATION_CONTEXT(
'Core Data for Automotive Mechanical Design Process');
#317=PRODUCT_CONTEXT('part definition',#316,'mechanical');
#318=PRODUCT('LSNUT-AAAE-TJCA','LSNUT-AAAE-UKGI',$,(#317));
#319=PRESENTATION_STYLE_ASSIGNMENT((#320));
#320=SURFACE_STYLE_USAGE(.BOTH.,#321);
#321=SURFACE_SIDE_STYLE('',(#322));
#322=SURFACE_STYLE_FILL_AREA(#323);
#323=FILL_AREA_STYLE('',(#324));
#324=FILL_AREA_STYLE_COLOUR('',#325);
#325=COLOUR_RGB('',0.749019607843137,0.749019607843137,0.749019607843137);
ENDSEC;
END-ISO-10303-21;
